ISO-10303-21;
HEADER;
FILE_DESCRIPTION (( 'STEP AP203' ),
    '1' );
FILE_NAME ('BK7-RNDF-25.4-1.5.STEP',
    '2020-12-22T01:28:17',
    ( '' ),
    ( '' ),
    'SwSTEP 2.0',
    'SolidWorks 2020',
    '' );
FILE_SCHEMA (( 'CONFIG_CONTROL_DESIGN' ));
ENDSEC;

DATA;
#1 = DIRECTION ( 'NONE',  ( -1.000000000000000000, -0.000000000000000000, -0.000000000000000000 ) ) ;
#2 = CARTESIAN_POINT ( 'NONE',  ( 0.000000000000000000, 1.555301434917138433E-15, -12.69999999999999929 ) ) ;
#3 = APPROVAL ( #36, 'UNSPECIFIED' ) ;
#4 = DIRECTION ( 'NONE',  ( -1.000000000000000000, 0.000000000000000000, -0.000000000000000000 ) ) ;
#5 = PERSON ( 'UNSPECIFIED', 'UNSPECIFIED', 'UNSPECIFIED', ('UNSPECIFIED'), ('UNSPECIFIED'), ('UNSPECIFIED') ) ;
#6 = CC_DESIGN_DATE_AND_TIME_ASSIGNMENT ( #84, #60, ( #138 ) ) ;
#7 = EDGE_CURVE ( 'NONE', #81, #13, #48, .T. ) ;
#8 = DATE_AND_TIME ( #77, #127 ) ;
#9 = COORDINATED_UNIVERSAL_TIME_OFFSET ( 8, 0, .AHEAD. ) ;
#10 = EDGE_LOOP ( 'NONE', ( #57, #27 ) ) ;
#11 = LOCAL_TIME ( 9, 28, 17.00000000000000000, #106 ) ;
#12 = DESIGN_CONTEXT ( 'detailed design', #116, 'design' ) ;
#13 = VERTEX_POINT ( 'NONE', #92 ) ;
#14 = SECURITY_CLASSIFICATION ( '', '', #32 ) ;
#15 = FACE_OUTER_BOUND ( 'NONE', #41, .T. ) ;
#16 = APPROVAL_ROLE ( '' ) ;
#17 = ORIENTED_EDGE ( 'NONE', *, *, #137, .T. ) ;
#18 = APPROVAL_STATUS ( 'not_yet_approved' ) ;
#19 = DIRECTION ( 'NONE',  ( 0.000000000000000000, 0.000000000000000000, 1.000000000000000000 ) ) ;
#20 = AXIS2_PLACEMENT_3D ( 'NONE', #39, #53, #119 ) ;
#21 = CARTESIAN_POINT ( 'NONE',  ( 0.000000000000000000, 0.000000000000000000, 12.69999999999999929 ) ) ;
#22 = EDGE_CURVE ( 'NONE', #13, #81, #171, .T. ) ;
#23 = APPLICATION_PROTOCOL_DEFINITION ( 'international standard', 'config_control_design', 1994, #107 ) ;
#24 = CARTESIAN_POINT ( 'NONE',  ( 0.000000000000000000, 0.000000000000000000, 0.000000000000000000 ) ) ;
#25 =( NAMED_UNIT ( * ) SI_UNIT ( $, .STERADIAN. ) SOLID_ANGLE_UNIT ( ) );
#26 = MECHANICAL_CONTEXT ( 'NONE', #107, 'mechanical' ) ;
#27 = ORIENTED_EDGE ( 'NONE', *, *, #22, .F. ) ;
#28 = ORIENTED_EDGE ( 'NONE', *, *, #22, .T. ) ;
#29 = CC_DESIGN_PERSON_AND_ORGANIZATION_ASSIGNMENT ( #115, #85, ( #133 ) ) ;
#30 = FACE_OUTER_BOUND ( 'NONE', #10, .T. ) ;
#31 = CC_DESIGN_DATE_AND_TIME_ASSIGNMENT ( #100, #70, ( #14 ) ) ;
#32 = SECURITY_CLASSIFICATION_LEVEL ( 'unclassified' ) ;
#33 = PERSON_AND_ORGANIZATION_ROLE ( 'classification_officer' ) ;
#34 = APPROVAL_PERSON_ORGANIZATION ( #86, #96, #46 ) ;
#35 = CC_DESIGN_PERSON_AND_ORGANIZATION_ASSIGNMENT ( #47, #33, ( #14 ) ) ;
#36 = APPROVAL_STATUS ( 'not_yet_approved' ) ;
#37 = CALENDAR_DATE ( 2020, 22, 12 ) ;
#38 = AXIS2_PLACEMENT_3D ( 'NONE', #122, #1, #54 ) ;
#39 = CARTESIAN_POINT ( 'NONE',  ( 1.999999999999998224, 0.000000000000000000, 0.000000000000000000 ) ) ;
#40 = ORIENTED_EDGE ( 'NONE', *, *, #165, .T. ) ;
#41 = EDGE_LOOP ( 'NONE', ( #131, #28, #40, #101 ) ) ;
#42 = CC_DESIGN_APPROVAL ( #79, ( #14 ) ) ;
#43 = DIRECTION ( 'NONE',  ( -1.000000000000000000, -0.000000000000000000, -0.000000000000000000 ) ) ;
#44 = CYLINDRICAL_SURFACE ( 'NONE', #93, 12.69999999999999929 ) ;
#45 = ADVANCED_FACE ( 'NONE', ( #104 ), #103, .F. ) ;
#46 = APPROVAL_ROLE ( '' ) ;
#47 = PERSON_AND_ORGANIZATION ( #5, #89 ) ;
#48 = CIRCLE ( 'NONE', #82, 12.69999999999999929 ) ;
#49 = COORDINATED_UNIVERSAL_TIME_OFFSET ( 8, 0, .AHEAD. ) ;
#50 = CALENDAR_DATE ( 2020, 22, 12 ) ;
#51 = DIRECTION ( 'NONE',  ( -1.000000000000000000, -0.000000000000000000, -0.000000000000000000 ) ) ;
#52 = CARTESIAN_POINT ( 'NONE',  ( -1.187907395172932594E-15, 1.555301434917138433E-15, -12.69999999999999929 ) ) ;
#53 = DIRECTION ( 'NONE',  ( -1.000000000000000000, -0.000000000000000000, -0.000000000000000000 ) ) ;
#54 = DIRECTION ( 'NONE',  ( 0.000000000000000000, 0.000000000000000000, 1.000000000000000000 ) ) ;
#55 = LOCAL_TIME ( 9, 28, 17.00000000000000000, #113 ) ;
#56 = CC_DESIGN_APPROVAL ( #3, ( #138 ) ) ;
#57 = ORIENTED_EDGE ( 'NONE', *, *, #7, .F. ) ;
#58 = FACE_OUTER_BOUND ( 'NONE', #80, .T. ) ;
#59 = EDGE_CURVE ( 'NONE', #175, #64, #148, .T. ) ;
#60 = DATE_TIME_ROLE ( 'creation_date' ) ;
#61 = PERSON_AND_ORGANIZATION ( #5, #89 ) ;
#62 = ORIENTED_EDGE ( 'NONE', *, *, #7, .T. ) ;
#63 = CLOSED_SHELL ( 'NONE', ( #163, #128, #160, #45 ) ) ;
#64 = VERTEX_POINT ( 'NONE', #52 ) ;
#65 = VECTOR ( 'NONE', #51, 1000.000000000000000 ) ;
#66 = EDGE_LOOP ( 'NONE', ( #121, #17 ) ) ;
#67 = DATE_AND_TIME ( #102, #11 ) ;
#68 = CYLINDRICAL_SURFACE ( 'NONE', #38, 12.69999999999999929 ) ;
#69 = LINE ( 'NONE', #2, #65 ) ;
#70 = DATE_TIME_ROLE ( 'classification_date' ) ;
#71 = DIRECTION ( 'NONE',  ( -0.000000000000000000, 0.000000000000000000, 1.000000000000000000 ) ) ;
#72 = CC_DESIGN_PERSON_AND_ORGANIZATION_ASSIGNMENT ( #61, #166, ( #125 ) ) ;
#73 = ADVANCED_BREP_SHAPE_REPRESENTATION ( 'BK7-RNDF-25.4-1.5', ( #162, #172 ), #108 ) ;
#74 = DIRECTION ( 'NONE',  ( 0.000000000000000000, 0.000000000000000000, 1.000000000000000000 ) ) ;
#75 = APPROVAL_DATE_TIME ( #99, #3 ) ;
#76 = APPROVAL_ROLE ( '' ) ;
#77 = CALENDAR_DATE ( 2020, 22, 12 ) ;
#78 = CC_DESIGN_SECURITY_CLASSIFICATION ( #14, ( #125 ) ) ;
#79 = APPROVAL ( #18, 'UNSPECIFIED' ) ;
#80 = EDGE_LOOP ( 'NONE', ( #62, #173, #146, #147 ) ) ;
#81 = VERTEX_POINT ( 'NONE', #90 ) ;
#82 = AXIS2_PLACEMENT_3D ( 'NONE', #132, #134, #135 ) ;
#83 = APPROVAL_PERSON_ORGANIZATION ( #174, #79, #16 ) ;
#84 = DATE_AND_TIME ( #37, #141 ) ;
#85 = PERSON_AND_ORGANIZATION_ROLE ( 'design_owner' ) ;
#86 = PERSON_AND_ORGANIZATION ( #5, #89 ) ;
#87 = DIRECTION ( 'NONE',  ( -1.000000000000000000, -0.000000000000000000, -0.000000000000000000 ) ) ;
#88 = UNCERTAINTY_MEASURE_WITH_UNIT (LENGTH_MEASURE( 1.000000000000000082E-05 ), #139, 'distance_accuracy_value', 'NONE');
#89 = ORGANIZATION ( 'UNSPECIFIED', 'UNSPECIFIED', '' ) ;
#90 = CARTESIAN_POINT ( 'NONE',  ( 1.999999999999998224, 0.000000000000000000, 12.69999999999999929 ) ) ;
#91 = PRODUCT_DEFINITION_SHAPE ( 'NONE', 'NONE',  #138 ) ;
#92 = CARTESIAN_POINT ( 'NONE',  ( 1.999999999999998224, 1.555301434917138433E-15, -12.69999999999999929 ) ) ;
#93 = AXIS2_PLACEMENT_3D ( 'NONE', #149, #94, #136 ) ;
#94 = DIRECTION ( 'NONE',  ( -1.000000000000000000, -0.000000000000000000, -0.000000000000000000 ) ) ;
#95 = AXIS2_PLACEMENT_3D ( 'NONE', #110, #157, #156 ) ;
#96 = APPROVAL ( #152, 'UNSPECIFIED' ) ;
#97 = CARTESIAN_POINT ( 'NONE',  ( -1.187907395172932594E-15, 0.000000000000000000, 12.69999999999999929 ) ) ;
#98 = CALENDAR_DATE ( 2020, 22, 12 ) ;
#99 = DATE_AND_TIME ( #98, #150 ) ;
#100 = DATE_AND_TIME ( #50, #55 ) ;
#101 = ORIENTED_EDGE ( 'NONE', *, *, #137, .F. ) ;
#102 = CALENDAR_DATE ( 2020, 22, 12 ) ;
#103 = PLANE ( 'NONE',  #95 ) ;
#104 = FACE_OUTER_BOUND ( 'NONE', #66, .T. ) ;
#105 = SHAPE_DEFINITION_REPRESENTATION ( #91, #73 ) ;
#106 = COORDINATED_UNIVERSAL_TIME_OFFSET ( 8, 0, .AHEAD. ) ;
#107 = APPLICATION_CONTEXT ( 'configuration controlled 3d designs of mechanical parts and assemblies' ) ;
#108 =( GEOMETRIC_REPRESENTATION_CONTEXT ( 3 ) GLOBAL_UNCERTAINTY_ASSIGNED_CONTEXT ( ( #88 ) ) GLOBAL_UNIT_ASSIGNED_CONTEXT ( ( #139, #168, #25 ) ) REPRESENTATION_CONTEXT ( 'NONE', 'WORKASPACE' ) );
#109 = CC_DESIGN_APPROVAL ( #96, ( #125 ) ) ;
#110 = CARTESIAN_POINT ( 'NONE',  ( -5.939536975864662969E-16, 12.69999999999999929, 0.000000000000000000 ) ) ;
#111 = CARTESIAN_POINT ( 'NONE',  ( 1.999999999999999112, 12.69999999999999929, 0.000000000000000000 ) ) ;
#112 = CIRCLE ( 'NONE', #140, 12.69999999999999929 ) ;
#113 = COORDINATED_UNIVERSAL_TIME_OFFSET ( 8, 0, .AHEAD. ) ;
#114 = CC_DESIGN_PERSON_AND_ORGANIZATION_ASSIGNMENT ( #169, #151, ( #125 ) ) ;
#115 = PERSON_AND_ORGANIZATION ( #5, #89 ) ;
#116 = APPLICATION_CONTEXT ( 'configuration controlled 3d designs of mechanical parts and assemblies' ) ;
#117 = APPROVAL_DATE_TIME ( #8, #96 ) ;
#118 = CARTESIAN_POINT ( 'NONE',  ( -1.187907395172932594E-15, 0.000000000000000000, 0.000000000000000000 ) ) ;
#119 = DIRECTION ( 'NONE',  ( 0.000000000000000000, 0.000000000000000000, 1.000000000000000000 ) ) ;
#120 = AXIS2_PLACEMENT_3D ( 'NONE', #118, #123, #170 ) ;
#121 = ORIENTED_EDGE ( 'NONE', *, *, #59, .T. ) ;
#122 = CARTESIAN_POINT ( 'NONE',  ( 0.000000000000000000, 0.000000000000000000, 0.000000000000000000 ) ) ;
#123 = DIRECTION ( 'NONE',  ( -1.000000000000000000, -0.000000000000000000, -0.000000000000000000 ) ) ;
#124 = LINE ( 'NONE', #21, #167 ) ;
#125 = PRODUCT_DEFINITION_FORMATION_WITH_SPECIFIED_SOURCE ( 'ANY', '', #133, .NOT_KNOWN. ) ;
#126 = PERSON_AND_ORGANIZATION ( #5, #89 ) ;
#127 = LOCAL_TIME ( 9, 28, 17.00000000000000000, #9 ) ;
#128 = ADVANCED_FACE ( 'NONE', ( #15 ), #68, .T. ) ;
#129 = COORDINATED_UNIVERSAL_TIME_OFFSET ( 8, 0, .AHEAD. ) ;
#130 = CC_DESIGN_PERSON_AND_ORGANIZATION_ASSIGNMENT ( #126, #154, ( #138 ) ) ;
#131 = ORIENTED_EDGE ( 'NONE', *, *, #155, .F. ) ;
#132 = CARTESIAN_POINT ( 'NONE',  ( 1.999999999999998224, 0.000000000000000000, 0.000000000000000000 ) ) ;
#133 = PRODUCT ( 'BK7-RNDF-25.4-1.5', 'BK7-RNDF-25.4-1.5', '', ( #26 ) ) ;
#134 = DIRECTION ( 'NONE',  ( -1.000000000000000000, -0.000000000000000000, -0.000000000000000000 ) ) ;
#135 = DIRECTION ( 'NONE',  ( 0.000000000000000000, 0.000000000000000000, 1.000000000000000000 ) ) ;
#136 = DIRECTION ( 'NONE',  ( 0.000000000000000000, 0.000000000000000000, 1.000000000000000000 ) ) ;
#137 = EDGE_CURVE ( 'NONE', #64, #175, #112, .T. ) ;
#138 = PRODUCT_DEFINITION ( 'UNKNOWN', '', #125, #12 ) ;
#139 =( LENGTH_UNIT ( ) NAMED_UNIT ( * ) SI_UNIT ( .MILLI., .METRE. ) );
#140 = AXIS2_PLACEMENT_3D ( 'NONE', #158, #43, #19 ) ;
#141 = LOCAL_TIME ( 9, 28, 17.00000000000000000, #129 ) ;
#142 = APPLICATION_PROTOCOL_DEFINITION ( 'international standard', 'config_control_design', 1994, #116 ) ;
#143 = AXIS2_PLACEMENT_3D ( 'NONE', #111, #4, #71 ) ;
#144 = DIRECTION ( 'NONE',  ( 1.000000000000000000, 0.000000000000000000, 0.000000000000000000 ) ) ;
#145 = APPROVAL_DATE_TIME ( #67, #79 ) ;
#146 = ORIENTED_EDGE ( 'NONE', *, *, #59, .F. ) ;
#147 = ORIENTED_EDGE ( 'NONE', *, *, #165, .F. ) ;
#148 = CIRCLE ( 'NONE', #120, 12.69999999999999929 ) ;
#149 = CARTESIAN_POINT ( 'NONE',  ( 0.000000000000000000, 0.000000000000000000, 0.000000000000000000 ) ) ;
#150 = LOCAL_TIME ( 9, 28, 17.00000000000000000, #49 ) ;
#151 = PERSON_AND_ORGANIZATION_ROLE ( 'creator' ) ;
#152 = APPROVAL_STATUS ( 'not_yet_approved' ) ;
#153 = PERSON_AND_ORGANIZATION ( #5, #89 ) ;
#154 = PERSON_AND_ORGANIZATION_ROLE ( 'creator' ) ;
#155 = EDGE_CURVE ( 'NONE', #13, #64, #69, .T. ) ;
#156 = DIRECTION ( 'NONE',  ( 0.000000000000000000, 0.000000000000000000, -1.000000000000000000 ) ) ;
#157 = DIRECTION ( 'NONE',  ( 1.000000000000000000, 0.000000000000000000, 0.000000000000000000 ) ) ;
#158 = CARTESIAN_POINT ( 'NONE',  ( -1.187907395172932594E-15, 0.000000000000000000, 0.000000000000000000 ) ) ;
#159 = APPROVAL_PERSON_ORGANIZATION ( #153, #3, #76 ) ;
#160 = ADVANCED_FACE ( 'NONE', ( #30 ), #161, .F. ) ;
#161 = PLANE ( 'NONE',  #143 ) ;
#162 = MANIFOLD_SOLID_BREP ( 'Ðý×', #63 ) ;
#163 = ADVANCED_FACE ( 'NONE', ( #58 ), #44, .T. ) ;
#164 = PRODUCT_RELATED_PRODUCT_CATEGORY ( 'detail', '', ( #133 ) ) ;
#165 = EDGE_CURVE ( 'NONE', #81, #175, #124, .T. ) ;
#166 = PERSON_AND_ORGANIZATION_ROLE ( 'design_supplier' ) ;
#167 = VECTOR ( 'NONE', #87, 1000.000000000000000 ) ;
#168 =( NAMED_UNIT ( * ) PLANE_ANGLE_UNIT ( ) SI_UNIT ( $, .RADIAN. ) );
#169 = PERSON_AND_ORGANIZATION ( #5, #89 ) ;
#170 = DIRECTION ( 'NONE',  ( 0.000000000000000000, 0.000000000000000000, 1.000000000000000000 ) ) ;
#171 = CIRCLE ( 'NONE', #20, 12.69999999999999929 ) ;
#172 = AXIS2_PLACEMENT_3D ( 'NONE', #24, #74, #144 ) ;
#173 = ORIENTED_EDGE ( 'NONE', *, *, #155, .T. ) ;
#174 = PERSON_AND_ORGANIZATION ( #5, #89 ) ;
#175 = VERTEX_POINT ( 'NONE', #97 ) ;
ENDSEC;
END-ISO-10303-21;
